  0
SECTION
  2
HEADER
  9
$ACADVER
  1
AC1009
  9
$INSBASE
 10
11.49912376779846
 20
18.39200279378394
 30
0.0
  9
$EXTMIN
 10
11.49912376779846
 20
18.39200279378394
 30
0.0
  9
$EXTMAX
 10
86.50922673409921
 20
36.3036493801291
 30
0.0
  9
$LIMMIN
 10
0.0
 20
0.0
  9
$LIMMAX
 10
420.0
 20
297.0
  9
$ORTHOMODE
 70
     0
  9
$REGENMODE
 70
     0
  9
$FILLMODE
 70
     1
  9
$QTEXTMODE
 70
     0
  9
$MIRRTEXT
 70
     0
  9
$DRAGMODE
 70
     2
  9
$LTSCALE
 40
1.0
  9
$OSMODE
 70
     0
  9
$ATTMODE
 70
     1
  9
$TEXTSIZE
 40
3.5
  9
$TRACEWID
 40
0.1
  9
$TEXTSTYLE
  7
STANDARD
  9
$CLAYER
  8
0
  9
$CELTYPE
  6
BYLAYER
  9
$CECOLOR
 62
   256
  9
$DIMSCALE
 40
1.0
  9
$DIMASZ
 40
2.0
  9
$DIMEXO
 40
1.0
  9
$DIMDLI
 40
8.0
  9
$DIMRND
 40
0.0
  9
$DIMDLE
 40
0.0
  9
$DIMEXE
 40
2.0
  9
$DIMTP
 40
0.1
  9
$DIMTM
 40
0.1
  9
$DIMTXT
 40
3.5
  9
$DIMCEN
 40
2.0
  9
$DIMTSZ
 40
0.0
  9
$DIMTOL
 70
     0
  9
$DIMLIM
 70
     0
  9
$DIMTIH
 70
     0
  9
$DIMTOH
 70
     0
  9
$DIMSE1
 70
     0
  9
$DIMSE2
 70
     0
  9
$DIMTAD
 70
     1
  9
$DIMZIN
 70
     0
  9
$DIMBLK
  1

  9
$DIMASO
 70
     1
  9
$DIMSHO
 70
     0
  9
$DIMPOST
  1

  9
$DIMAPOST
  1

  9
$DIMALT
 70
     0
  9
$DIMALTD
 70
     2
  9
$DIMALTF
 40
25.39999999999999
  9
$DIMLFAC
 40
1.0
  9
$DIMTOFL
 70
     0
  9
$DIMTVP
 40
0.0
  9
$DIMTIX
 70
     0
  9
$DIMSOXD
 70
     0
  9
$DIMSAH
 70
     0
  9
$DIMBLK1
  1

  9
$DIMBLK2
  1

  9
$DIMSTYLE
  2
*UNNAMED
  9
$DIMCLRD
 70
     0
  9
$DIMCLRE
 70
     0
  9
$DIMCLRT
 70
     0
  9
$DIMTFAC
 40
1.0
  9
$DIMGAP
 40
0.09
  9
$LUNITS
 70
     2
  9
$LUPREC
 70
     3
  9
$SKETCHINC
 40
0.1
  9
$FILLETRAD
 40
20.0
  9
$AUNITS
 70
     0
  9
$AUPREC
 70
     1
  9
$MENU
  1

  9
$ELEVATION
 40
0.0
  9
$PELEVATION
 40
0.0
  9
$THICKNESS
 40
0.0
  9
$LIMCHECK
 70
     0
  9
$BLIPMODE
 70
     0
  9
$CHAMFERA
 40
0.0
  9
$CHAMFERB
 40
0.0
  9
$SKPOLY
 70
     1
  9
$TDCREATE
 40
2448544.552428356
  9
$TDUPDATE
 40
2449393.454330439
  9
$TDINDWG
 40
0.0002905093
  9
$TDUSRTIMER
 40
0.0002905093
  9
$USRTIMER
 70
     1
  9
$ANGBASE
 50
0.0
  9
$ANGDIR
 70
     0
  9
$PDMODE
 70
     0
  9
$PDSIZE
 40
0.0
  9
$PLINEWID
 40
0.0
  9
$COORDS
 70
     2
  9
$SPLFRAME
 70
     0
  9
$SPLINETYPE
 70
     6
  9
$SPLINESEGS
 70
     8
  9
$ATTDIA
 70
     1
  9
$ATTREQ
 70
     1
  9
$HANDLING
 70
     0
  9
$HANDSEED
  5
52
  9
$SURFTAB1
 70
     6
  9
$SURFTAB2
 70
     6
  9
$SURFTYPE
 70
     6
  9
$SURFU
 70
     6
  9
$SURFV
 70
     6
  9
$UCSNAME
  2

  9
$UCSORG
 10
0.0
 20
0.0
 30
0.0
  9
$UCSXDIR
 10
1.0
 20
0.0
 30
0.0
  9
$UCSYDIR
 10
0.0
 20
1.0
 30
0.0
  9
$PUCSNAME
  2

  9
$PUCSORG
 10
0.0
 20
0.0
 30
0.0
  9
$PUCSXDIR
 10
1.0
 20
0.0
 30
0.0
  9
$PUCSYDIR
 10
0.0
 20
1.0
 30
0.0
  9
$USERI1
 70
     0
  9
$USERI2
 70
     3
  9
$USERI3
 70
    15
  9
$USERI4
 70
     0
  9
$USERI5
 70
     0
  9
$USERR1
 40
1.0
  9
$USERR2
 40
1.0
  9
$USERR3
 40
0.0
  9
$USERR4
 40
1.0
  9
$USERR5
 40
0.0
  9
$WORLDVIEW
 70
     1
  9
$SHADEDGE
 70
     3
  9
$SHADEDIF
 70
    70
  9
$TILEMODE
 70
     1
  9
$MAXACTVP
 70
    16
  9
$PINSBASE
 10
0.0
 20
0.0
 30
0.0
  9
$PLIMCHECK
 70
     0
  9
$PEXTMIN
 10
1.000000000000000E+20
 20
1.000000000000000E+20
 30
1.000000000000000E+20
  9
$PEXTMAX
 10
-1.000000000000000E+20
 20
-1.000000000000000E+20
 30
-1.000000000000000E+20
  9
$PLIMMIN
 10
0.0
 20
0.0
  9
$PLIMMAX
 10
12.0
 20
9.0
  9
$UNITMODE
 70
     0
  9
$VISRETAIN
 70
     0
  9
$PLINEGEN
 70
     0
  9
$PSLTSCALE
 70
     0
  9
$TREEDEPTH
 70
  3020
  9
$DWGCODEPAGE
  3
undefined
  0
ENDSEC
  0
SECTION
  2
TABLES
  0
TABLE
  2
VPORT
 70
     2
  0
VPORT
  2
*ACTIVE
 70
     0
 10
0.0
 20
0.0
 11
1.0
 21
1.0
 12
49.00417525094884
 22
47.79214908354164
 13
0.0
 23
0.0
 14
1.0
 24
1.0
 15
10.0
 25
10.0
 16
0.0
 26
0.0
 36
1.0
 17
0.0
 27
0.0
 37
0.0
 40
58.80029257951541
 41
1.275675675675675
 42
50.0
 43
0.0
 44
0.0
 50
0.0
 51
0.0
 71
     0
 72
   100
 73
     1
 74
     0
 75
     0
 76
     0
 77
     0
 78
     0
  0
ENDTAB
  0
TABLE
  2
LTYPE
 70
     3
  0
LTYPE
  2
AUSGEZOGEN
 70
    64
  3
Solid line
 72
    65
 73
     0
 40
0.0
  0
LTYPE
  2
ITEM-STRICH
 70
    64
  3
- - - - -
 72
    65
 73
     2
 40
1.5
 49
1.2
 49
-0.3
  0
LTYPE
  2
ITEM-STRICHPUNKT
 70
    64
  3
__ . __ . __
 72
    65
 73
     4
 40
3.599999999999999
 49
2.399999999999999
 49
-0.6
 49
0.0
 49
-0.6
  0
ENDTAB
  0
TABLE
  2
LAYER
 70
     5
  0
LAYER
  2
0
 70
     0
 62
     7
  6
AUSGEZOGEN
  0
LAYER
  2
ITEM_50
 70
    64
 62
     7
  6
AUSGEZOGEN
  0
LAYER
  2
ITEM_25
 70
    64
 62
     3
  6
AUSGEZOGEN
  0
LAYER
  2
ITEM_STP
 70
    64
 62
     4
  6
ITEM-STRICHPUNKT
  0
LAYER
  2
ITEM_GSTR
 70
    64
 62
     6
  6
ITEM-STRICH
  0
ENDTAB
  0
TABLE
  2
STYLE
 70
     1
  0
STYLE
  2
STANDARD
 70
     0
 40
0.0
 41
1.0
 50
0.0
 71
     0
 42
3.5
  3
iso
  4

  0
ENDTAB
  0
TABLE
  2
VIEW
 70
     0
  0
ENDTAB
  0
TABLE
  2
UCS
 70
     0
  0
ENDTAB
  0
TABLE
  2
APPID
 70
     1
  0
APPID
  2
ACAD
 70
    64
  0
ENDTAB
  0
TABLE
  2
DIMSTYLE
 70
     0
  0
ENDTAB
  0
ENDSEC
  0
SECTION
  2
BLOCKS
  0
ENDSEC
  0
SECTION
  2
ENTITIES
  0
LINE
  8
ITEM_STP
 10
77.55340344092662
 20
27.34782608695652
 30
0.0
 11
77.55340344092662
 21
18.39200279378394
 31
0.0
  0
LINE
  8
ITEM_STP
 10
77.55340344092662
 20
27.34782608695652
 30
0.0
 11
68.59758014775404
 21
27.34782608695652
 31
0.0
  0
LINE
  8
ITEM_STP
 10
77.55340344092662
 20
27.34782608695652
 30
0.0
 11
77.55340344092662
 21
36.3036493801291
 31
0.0
  0
LINE
  8
ITEM_STP
 10
77.55340344092662
 20
27.34782608695652
 30
0.0
 11
86.50922673409921
 21
27.34782608695652
 31
0.0
  0
CIRCLE
  8
ITEM_50
 10
77.55340344092662
 20
27.34782608695652
 30
0.0
 40
7.0
  0
CIRCLE
  8
ITEM_50
 10
77.55340344092662
 20
27.34782608695652
 30
0.0
 40
3.0
  0
LINE
  8
ITEM_50
 10
76.11002776795257
 20
29.84782608695652
 30
0.0
 11
74.6666520949785
 21
27.34782608695652
 31
0.0
  0
LINE
  8
ITEM_50
 10
74.6666520949785
 20
27.34782608695652
 30
0.0
 11
76.11002776795255
 21
24.84782608695652
 31
0.0
  0
LINE
  8
ITEM_50
 10
76.11002776795255
 20
24.84782608695652
 30
0.0
 11
78.99677911390068
 21
24.84782608695652
 31
0.0
  0
LINE
  8
ITEM_50
 10
78.99677911390068
 20
24.84782608695652
 30
0.0
 11
80.44015478687475
 21
27.34782608695651
 31
0.0
  0
LINE
  8
ITEM_50
 10
80.44015478687475
 20
27.34782608695651
 30
0.0
 11
78.9967791139007
 21
29.84782608695651
 31
0.0
  0
LINE
  8
ITEM_50
 10
78.9967791139007
 20
29.84782608695651
 30
0.0
 11
76.11002776795257
 21
29.84782608695652
 31
0.0
  0
LINE
  8
ITEM_STP
 10
11.49912376779846
 20
27.34782608695652
 30
0.0
 11
65.89912376779847
 21
27.34782608695652
 31
0.0
  0
LINE
  8
ITEM_50
 10
21.92301455278188
 20
31.34782608695617
 30
0.0
 11
20.89912376779846
 21
31.94782608695652
 31
0.0
  0
LINE
  8
ITEM_50
 10
21.92301455278119
 20
23.34782608695617
 30
0.0
 11
60.03412376779846
 21
23.34782608695617
 31
0.0
  0
LINE
  8
ITEM_50
 10
21.92301455278119
 20
23.34782608695617
 30
0.0
 11
20.89912376779846
 21
22.74782608695652
 31
0.0
  0
LINE
  8
ITEM_25
 10
23.39912376779881
 20
30.48282608695617
 30
0.0
 11
21.92301455278188
 21
31.34782608695617
 31
0.0
  0
LINE
  8
ITEM_25
 10
23.3991237677988
 20
24.21282608695617
 30
0.0
 11
21.92301455278119
 21
23.34782608695617
 31
0.0
  0
LINE
  8
ITEM_25
 10
60.89912376779846
 20
30.48282608695617
 30
0.0
 11
23.39912376779881
 21
30.48282608695617
 31
0.0
  0
LINE
  8
ITEM_25
 10
60.89912376779846
 20
24.21282608695617
 30
0.0
 11
23.3991237677988
 21
24.21282608695617
 31
0.0
  0
LINE
  8
ITEM_50
 10
60.03412376779846
 20
31.34782608695617
 30
0.0
 11
21.92301455278188
 21
31.34782608695617
 31
0.0
  0
LINE
  8
ITEM_50
 10
60.89912376779846
 20
30.48282608695617
 30
0.0
 11
60.03412376779846
 21
31.34782608695617
 31
0.0
  0
LINE
  8
ITEM_50
 10
60.89912376779846
 20
27.34782608695617
 30
0.0
 11
60.89912376779846
 21
30.48282608695617
 31
0.0
  0
LINE
  8
ITEM_50
 10
60.89912376779846
 20
24.21282608695617
 30
0.0
 11
60.89912376779846
 21
27.34782608695617
 31
0.0
  0
LINE
  8
ITEM_50
 10
60.03412376779846
 20
23.34782608695617
 30
0.0
 11
60.89912376779846
 21
24.21282608695617
 31
0.0
  0
LINE
  8
ITEM_50
 10
23.3991237677988
 20
23.34782608695617
 30
0.0
 11
23.39912376779881
 21
31.34782608695617
 31
0.0
  0
LINE
  8
ITEM_50
 10
60.03412376779846
 20
23.34782608695617
 30
0.0
 11
60.03412376779846
 21
31.34782608695617
 31
0.0
  0
LINE
  8
ITEM_GSTR
 10
21.19912376779703
 20
27.34782608695617
 30
0.0
 11
19.69912376779703
 21
30.34782608695617
 31
0.0
  0
LINE
  8
ITEM_GSTR
 10
19.69912376779703
 20
24.34782608695617
 30
0.0
 11
21.19912376779703
 21
27.34782608695617
 31
0.0
  0
LINE
  8
ITEM_GSTR
 10
16.49912376779812
 20
28.84782608695617
 30
0.0
 11
19.69912376779703
 21
28.84782608695617
 31
0.0
  0
LINE
  8
ITEM_GSTR
 10
16.49912376779811
 20
25.84782608695617
 30
0.0
 11
19.69912376779703
 21
25.84782608695617
 31
0.0
  0
LINE
  8
ITEM_GSTR
 10
19.69912376779703
 20
30.34782608695617
 30
0.0
 11
16.49912376779812
 21
30.34782608695617
 31
0.0
  0
LINE
  8
ITEM_GSTR
 10
19.69912376779703
 20
24.34782608695617
 30
0.0
 11
19.69912376779703
 21
30.34782608695617
 31
0.0
  0
LINE
  8
ITEM_GSTR
 10
16.49912376779811
 20
24.34782608695617
 30
0.0
 11
19.69912376779703
 21
24.34782608695617
 31
0.0
  0
LINE
  8
ITEM_50
 10
20.09912376779811
 20
20.34782608695652
 30
0.0
 11
20.09912376779812
 21
34.34782608695652
 31
0.0
  0
LINE
  8
ITEM_50
 10
20.89912376779846
 20
20.34782608695652
 30
0.0
 11
20.09912376779811
 21
20.34782608695652
 31
0.0
  0
LINE
  8
ITEM_50
 10
20.89912376779846
 20
34.34782608695652
 30
0.0
 11
20.89912376779846
 21
20.34782608695652
 31
0.0
  0
LINE
  8
ITEM_50
 10
20.09912376779812
 20
34.34782608695652
 30
0.0
 11
20.89912376779846
 21
34.34782608695652
 31
0.0
  0
LINE
  8
ITEM_50
 10
16.49912376779811
 20
24.34782608695652
 30
0.0
 11
16.49912376779812
 21
30.34782608695652
 31
0.0
  0
ARC
  8
ITEM_50
 10
23.50271368883324
 20
27.03105701588813
 30
0.0
 40
7.5
 50
200.9629465537418
 51
243.0114784378914
  0
ARC
  8
ITEM_50
 10
23.50271368883324
 20
27.6645951580249
 30
0.0
 40
7.5
 50
116.9885215621085
 51
159.0370534462581
  0
ENDSEC
  0
EOF
